Ultimu' Nivel - Alexandra

e|--------------------------------------------------|
B|--------------------------------------------------|
G|--------------------------------------------------|
D|--------6--------6--6--8--6--4--3--4--------------|     
A|--------------------------------------------------|

E|--------------------------------------------------|

e|-------------------------------------------------------|
B|-------------------------------------------------------|
G|-------------------------------------------------------|   x2
D|--3---3--3--4--3--4--3--1------------------------------|     
A|--------------------------4-4-4-4-4-4-4-6-6-6-6/8-6----|
E|-------------------------------------------------------|

      C#       A#        F#         G# 
e|--------------------------------------------------|
B|--------------------------------------------------|
G|--6-6-6-6-----------------------------------------|
D|--6-6-6-6--8-8-8-8---4-4-4-4---6-6-6-6------------|     
A|--4-4-4-4--8-8-8-8---4-4-4-4---6-6-6-6------------|
E|-----------6-6-6-6---2-2-2-2---4-4-4-4------------|
       C#               A#
Cand te-am vazut intaia oara mam blocat
  F#                   G#
Plus cu parul lui Ada aproape ca mam inecat, 
De atunci si pana acuma totul ii neschibat, 
Socat primesc dotarile cu ce natura nea inzestrat.

Refren:
   F#        G#        F#            G#
Am Auzit la Radio ca tu esti fata de la meteo,

C#  G#   F# 
Alexandraaa. 
Ploi de vara ce ascunde Curcube
Nu e alta ce readuce soarele pe cerul meu, 

Strofa 2:

Din Piscina cand sub soare te lipesti, 
Cu piele umeda, catifelata tu ma innebunesti, 
Mi de fluturi tulburi zboara prin stomac, 
Cand vad mersul de felina unduit si delicat.

Refern:

Am Auzit la Radio ca tu esti fata de la meteo, 
Alexandraaa. 
Ploi de vara ce ascunde Curcube
Nu e alta ce readuce soarele pe cerul meu, 

solo
e|--------------------------------------------------|
B|--------------------------------------------------|
G|--------------------------------------------------|
D|--------6--------6--6--8--6--4--3--4--------------|     
A|--------------------------------------------------|
E|--------------------------------------------------|

e|----------------------------------------------------------------------|
B|----------------------------------------------------------------------|
G|----------------------------------------------------------------------|   
D|--3---3--3--4--3--4--3--1--------------4/6--6/8---8/10--10/11---------|     
A|--------------------------4-4-4-4/6 6---------------------------------|
E|----------------------------------------------------------------------|


Astept momentul cand te voi revedea, 
Sa simt mirajul adieri vantuli cu mireasma ta, 
Dar pana atuncia raman electrocutat, 
Cu Radio in mana si frecventa pe care am ascultat, 

Refren:

tu esti fata de la meteo, 
Alexandraaa. 
Ploï de vara ce ascunde Curcube
Nu e alta ce readuce soarele pe cerul meu.