Urma - Terminus (intro)

  • (1 voturi)
  • Contribuție:  Teooo94
|------1h3p1---------0------------0---------0--------------
|-------------3--------3------------3----------------------
|----2-------------2-----2-----0------0-0-3---3------------
|--0-------------3-----------------------------------------
|----------------------------3-----------------------------
|----------------------------------------------------------



|------1h3p1---------0------------0----------3-------------
|-------------3--------3------------3----------3-----------
|----2-------------2-----2-----0------0--------------------
|--0-------------3-----------------------------------------
|----------------------------3-----------------------------
|----------------------------------------------------------

apoi puteti continua cu

Dm  (nu stiu cum se numeste) C      G
|1   |1                      |0     |3
|3   |3                      |1     |3
|2   |2                      |0     |0
|0   |3                      |2     |0
|0   |0                      |3     |2
|0   |0                      |0     |3
 *in loc de C merge si Cadd9

voi incerca sa transpun toata melodia.momentan doar atat:D
  • Teooo94
    5 iulie 2012 16:02
    pai da..si eu tot fingerpicking-ul o sa-cerc sa-l transpun. Multumesc pentru imbunatatire :)
  • Marinescu Andrei
    16 iunie 2012 11:26
    Las, ca toata melodia e Dm-Dm9-C9-G7
    Refrenul in schimb este Dm-C9-F-G7. (Intre F si G7 e un slide)
    Astea sunt acordurile, fingerpicking-ul inca nu l-am aflat
  • Marinescu Andrei
    15 iunie 2012 14:15
    defapt al 2-lea acord este Dm9 si nu e G e Gm. Sper ca-i mai bine.
ef6700bd9cec302824fd1dfa8057bb7a
6Ld5REUUAAAAAA1PBEDya2BDGnf5rYKeKnmYm4Cz