Urma - This time - intro

1, recomand versiunea asta, suna plin, si placut


E|---------------------------------------------------------
B|---------------------------------------------------------
G|------------12--------6-----7---------------12--------6--
D|---------9---------7-----7-----9---------9---------7-----
A|-----10---------0--------------------10---------0--------
E|--0-------------------------------0----------------------


2, iar pe asta... decideti voi

E|-----------3-----------------------------3-----------
B|--------0-----------2-----3--0--------0-----------2--
G|-----0-----------2-----2-----------0-----------2-----
D|-----------------------------------------------------
A|--------------0-----------------------------0--------
E|--0-----------------------------0--------------------

multumesc: guitartabcreator.com
6Ld5REUUAAAAAA1PBEDya2BDGnf5rYKeKnmYm4Cz
dc29f2ea3b9dd8229ad6ac8c3a84f95f