Valeriu Sterian - Amintire cu haiducii (solo)

  • (6 voturi)
  • Contribuție:  rocked_viking
  • Ultima actualizare: 10.01.2010
PM PM                                                 
     O  O  O  O  S S S S O  O     O  P.      O  O  O  S S  
E||----------------------------|--------------------------|
B||----------------------------|--------------------------|
G||--------4--6----6---6-4-----|--4--6~------4--6--7--9---|
D||--6--7-------------------7--|--------------------------|
A||----------------------------|--------------------------|
E||----------------------------|--------------------------|


                              PM PM                      
  S S S S O  O  O  P.         O  O  O  O  S S S S O  O   
---------------------------|----------------------------|
---------------------------|----------------------------|
----7---6-4-----4--6~------|--------4--6----6---6-4-----|
-------------7-------------|--6--7-------------------7--|
---------------------------|----------------------------|
---------------------------|----------------------------|


  O  P.      O  O  O  S S    S S S S  O   O   O   P.       
--------------------------|-------------------------------|
--------------------------|----------12--10---------------|
--4--6~------4--6--7--9---|----7---9---------13--11~------|
--------------------------|-------------------------------|
--------------------------|-------------------------------|
--------------------------|-------------------------------|


   O   O   O   O  S  S S  S  O   O      O   P.       O   O   O   S S  
------------------------------------|--------------------------------|
----------12--14----14---14-12------|--12--14~------12--14--15--17---|
--13--14------------------------14--|--------------------------------|
------------------------------------|--------------------------------|
------------------------------------|--------------------------------|
------------------------------------|--------------------------------|


  S  S S  S  O   O   O   P.          O   O   O   O  S  S S  S  O   O   
---------------------------------|------------------------------------|
----15---14-12------12--14~------|----------12--14----14---14-12------|
----------------14---------------|--13--14------------------------14--|
---------------------------------|------------------------------------|
---------------------------------|------------------------------------|
---------------------------------|------------------------------------|


   O   P.       O   O   O   S S    S  S S  S  O   O   O   P.        
--------------------------------|------------19--17---------------||
--12--14~------12--14--15--17---|----15---17---------21--19~------||
--------------------------------|---------------------------------||
--------------------------------|---------------------------------||
--------------------------------|---------------------------------||
--------------------------------|---------------------------------||


Legenda
---------------
I  - nota intreaga
D  - doime
P  - patrime
O  - optime
S  - saisprezecime
.  - nota cu punct
PM - Palm mute
~  - Vibrato
  • JayMichael
    25 decembrie 2009 18:39
    Foarte bun tab-ul!Suna perfect!Felicitari!
  • kara
    1 noiembrie 2009 17:49
    Nu pot downloada fisierul Guitar Pro dar am ascultat o data melodia si m-am decurcat si fara. Suna foarte bine chiar si pe o chitara acustica. Multumesc!