Vama Veche - Vama Veche

  • (37 voturi)
  • Contribuție:  anonim120
intro:  ( este facut de pian - l-am adaptat pt chitara )                
                                   
e|------------------0------------------------0---|
B|--------3----3------1-------1--3-----3-------1-|
G|----0------0----0---------0--------0-----0-----|
D|------------------------2----------------------|
A|----3------------------------------------------|
E|-----------------------------------------------|

e|--------------0-------------------------------|
B|-----3----3------1----------1---0-1-0-1-------|
G|--0-----0---0-------------2--------------2----|
D|------------------------2---------------------|
A|--3-------------------0-----------------------|
E|----------------------------------------------|

e|-3--3-1-1-1-----3-1--3---5-3-3-3----5-3---3-|
B|----3-3-3-3-------3------3-3-3-3------3-----|
G|----2--------2-----------4--------4---------|
D|----0--------------------5------------------|
A|--------------------------------------------|
E|--------------------------------------------|

e|-3--1-1-1----3-1---3-5---3----1----0-----|
B|-3--3-3-3------3-------------------------|
G|-2---------2-----------4----4----2-------|
D|-0-------------------5---5----3----2-----|
A|-----------------------------------------|
E|-----------------------------------------|

Trenul accelerat Bucuresti-Mangalia pleaca in 5 minute de la linia 5
 
 C9             C 
Se poate sa fie zi
 Am  
Se poate sa fie noapte...
 C9              C
Se poate sa fie vara...
 Am               Am9
La fel cum iarna poate fi.
 
 Dm
Nisiul sa fie ud
 G
Iar marea un pic amara
 Dm
Nisipul sa zgarie lin
 G
Iar marea sa fie murdara.
 

Vrei soare, soare iti dau
Sau pielea ti-e ruda cu luna 
Pe stanci daca vrei te sarut
Sau in apa imi e totuna.
 

Sa pot sa te-aleg dintr-o suta
In ochi sa ai inima mea
Sa-ncerc sa m-ascund de iubire
Dar sa nu te mai,              
Sa nu te mai pot uita.
 

Iar noaptea sa ai pielea uda
Insetata sa tragi din tigara
Pe mare se-aude sirena
Al tau san imi mangaie mana
 
Povestea merge mai departe
Ca vantul din Vama Veche
Eu nu pot sa mai continui

Caci eu mi-am gasit pereche        
La Vama Veche, pereche
 
Povestea merge mai departe
Ca vantul din Vama Veche
Eu nu pot sa mai continui
Saruta-ma in ureche.
La Vama Veche, in ureche
 
Am plecat la Vama Veche 
Ca sa imi gasesc pereche
Am ajuns la Vama Veche
Si sunt apucat de streche
Stau pe plaja-n Vama Veche
Si am sarutul in ureche
Doar pe plaja-n Vama Veche
Noi toti vom avea pereche
 
Stau pe plaja-n Vama Veche    
Ca sa imi gasesc pereche
  • alexaraul
    5 iunie 2020 07:04
    07:02
    La Intro as schimba putin ceva, nu suna bine la al 4-lea acord. Corect este 0 2 2 0h1 1 0 3 Iar 1 coarda B si 2 coarda G ciupite deodata
  • DrownworD
    30 iunie 2014 17:32
    In loc de Am9 poti sa pui Asus2 si e mult mai usor si suna destul de bine...parerea mea :D
  • serjiuu
    20 august 2012 10:42
    in loc de am9 nu se poate pune un acord mai simplu :))
    asta ma omoara
67abf30c869cff4518d1d2408f01ab70
6Ld5REUUAAAAAA1PBEDya2BDGnf5rYKeKnmYm4Cz