Vasile Pandelescu - Geamparalele de la Constanta

atat piesa cat si acorduriile sunt atasate in fisierul guitar pro gp5
nivel intermediar
aranjament propriu in f# minor
transpunere pt acordeon (pian/keyboard)

E |-------------------------|-------------------------|
B |--------------2----------|-------------------------|
G |--1-----------2----------|--1----------------------|
D |--3--4--4--4--------4----|--3--4--4--4--------4----|
A |-------------------------|--------------4----------|
E |-------------------------|--------------5----------|


-------------------------|-------------------------||
--------------2----------|-------------------------||
--1-----------2----------|--1----------------------||
--3--4--4--4--------4----|--3--4--4--4--------4----||
-------------------------|--------------4----------||
-------------------------|--------------5----------||


-------------------------------------2-------|
-0L----0-----2-----------2--1--2-------------|
o--------------------------------------------|
o--------------------------------------------|
---------------------------------------------|
---------------------------------------------|


--------2-----------2-------------------------|
--2-----------2-----------2--1--2-------------|
--------------------------------------2-------|
----------------------------------------------|
----------------------------------------------|
----------------------------------------------|


-------------------------------------------------------------------|
--0--------2--------------0----------------------------------------|
--------------------2-----------2-----2--------1-------------------|
--------------------------------------------------------2----------|
-------------------------------------------------------------------|
-------------------------------------------------------------------|


----------------------------------------------|--0-----------0----------|
----------------------------------------------|--2-----3-----------3----|
--------------------------------1-----2-------|-------------------------|
--4--3--4-----4-----------4-------------------|-----4-----4-------------|
--------------------4-------------------------|-------------------------|
----------------------------------------------|-------------------------|


--------------------0-------------------------|
--2-----0-----2-----------0-----0-------------|
-----------------------------3--------2-------|
----------------------------------------------|
----------------------------------------------|
----------------------------------------------|


-------------------------------------------------------------------|
--0--------2--------------0----------------------------------------|
--------------------2-----------2-----2--------1-------------------|
--------------------------------------------------------2----------|
-------------------------------------------------------------------|
-------------------------------------------------------------------|


---------------------------------------------|||
---------------------------------------------|||
--------------------------------------------o|||
--4--3--4-----4-----------4-----4-----4-----o|||
--------------------4------------------------|||
---------------------------------------------|||


------------------------------------------------------------------|
------------------------------------------------------------------|
o-----------------------------------------------------------------|
o---------1--------2-----4-----2-----2--------1-------------------|
-4-----------------------------------------------------4----------|
------------------------------------------------------------------|


--------------------------------------------------------------------------------
--------------------------------------0-----------------------------------0-----
--2-----------1-----------2-----------------------------------------------------
--------------------------------------------------------------------------------
--------------------------------------------------------------------------------
--------------------------------------------------------------------------------


--------------------------------------------------|
------------0-------------------------------------|
---3--------------------------2-------------------|
--------------------------------------------------|
--------------------------------------------------|
--------------------------------------------------|


-------------------------------------------------------------------|
--0--------2--------------0----------------------------------------|
--------------------2-----------2-----2--------1-------------------|
--------------------------------------------------------2----------|
-------------------------------------------------------------------|
-------------------------------------------------------------------|


----------------------------------------------|
--------------------------2-------------------|
----------------------------------------------|
--4--3--4-----4-----------------4-------------|
--------------------4-----------------4-------|
----------------------------------------------|


-------------------------------------------------------------------|
-------------------------------------------------------------------|
-------------------------------------------------------------------|
-----------1--------2-----4-----2-----2--------1-------------------|
--4-----------------------------------------------------4----------|
-------------------------------------------------------------------|


--------------------------------------------------------------------------------
--------------------------------------0-----------------------------------0-----
--2-----------1-----------2-----------------------------------------------------
--------------------------------------------------------------------------------
--------------------------------------------------------------------------------
--------------------------------------------------------------------------------


--------------------------------------------------|
------------0-------------------------------------|
---3--------------------------2-------------------|
--------------------------------------------------|
--------------------------------------------------|
--------------------------------------------------|


-------------------------------------------------------------------|
--0--------2--------------0----------------------------------------|
--------------------2-----------2-----2--------1-------------------|
--------------------------------------------------------2----------|
-------------------------------------------------------------------|
-------------------------------------------------------------------|


---------------------------------------------|||
---------------------------------------------|||
--------------------------------------------o|||
--4--3--4-----4-----------4-----4-----4-----o|||
--------------------4------------------------|||
---------------------------------------------|||


------------------------------------------------------------------|
-0--------2--------------0-----------------------------0----------|
o------------------2-----------2-----2----------------------------|
o-----------------------------------------------------------------|
------------------------------------------------------------------|
------------------------------------------------------------------|


-------------------------|
--2-----0--2-------------|
--------------2-----2----|
-----2-------------------|
-------------------------|
-------------------------|


-------------------------------------------------------------------|
--0--------2--------------0----------------------------------------|
--------------------2-----------2-----2--------1-------------------|
--------------------------------------------------------2----------|
-------------------------------------------------------------------|
-------------------------------------------------------------------|


----------------------------------------------|
----------------------------------------------|
--------------------------------1-----2-------|
--4--3--4-----4-----------4-------------------|
--------------------4-------------------------|
----------------------------------------------|


-------------------------------------------------------------------|
--0--------2--------------0-----------------------------0----------|
--------------------2-----------2-----2----------------------------|
-------------------------------------------------------------------|
-------------------------------------------------------------------|
-------------------------------------------------------------------|


-------------------------|
--2-----0--2-------------|
--------------2-----2----|
-----2-------------------|
-------------------------|
-------------------------|


-------------------------------------------------------------------|
--0--------2--------------0----------------------------------------|
--------------------2-----------2-----2--------1-------------------|
--------------------------------------------------------2----------|
-------------------------------------------------------------------|
-------------------------------------------------------------------|


---------------------------------------------|||-5-----7-----9-----10---|
---------------------------------------------|||-------0-----2-----3----|
--------------------------------------------o|||o2----------------------|
--4--3--4-----4-----------4-----4-----4-----o|||o-----------------------|
--------------------4------------------------|||------------------------|
---------------------------------------------|||------------------------|


--0-----2-----12---------|
--17----19----5----------|
--------------------2----|
-------------------------|
-------------------------|
-------------------------|


-------------------------------------------------------------------|
--0--------2--------------0----------------------------------------|
--------------------2-----------2-----2--------1-------------------|
--------------------------------------------------------2----------|
-------------------------------------------------------------------|
-------------------------------------------------------------------|


----------------------------------------------|--5-----7-----9-----10---|
----------------------------------------------|--------0-----2-----3----|
--------------------------------1-----2-------|--2----------------------|
--4--3--4-----4-----------4-------------------|-------------------------|
--------------------4-------------------------|-------------------------|
----------------------------------------------|-------------------------|


--0-----2-----12---------|
--17----19----5----------|
--------------------2----|
-------------------------|
-------------------------|
-------------------------|


-------------------------------------------------------------------|
--0--------2--------------0----------------------------------------|
--------------------2-----------2-----2--------1-------------------|
--------------------------------------------------------2----------|
-------------------------------------------------------------------|
-------------------------------------------------------------------|


---------------------------------------------||-------------------------||
---------------------------------------------||-------------------------||
--------------------------------------------o||-------------------------||
--4--3--4-----4-----------4-----4-----4-----o||-------------------------||
--------------------4------------------------||-------------------------||
---------------------------------------------||-------------------------||