Vasile Șeicaru - Fără tine

Ca si intro, si un fel de legatura intre strofa si refren, se potriveste
urmatoarea chestie:

E||-----------------|-----------------||
B||-----------------|-----------------||
G||-----------------|-----------------||
D||--2----3----2----|--0--------------||
A||-----------------|-------3----2----||
E||-----------------|-----------------||

Vers:

         
     Am                   B                    Dm                 
         Numai urme de   pasi
E||--------------------|--------------------|-----------1--------|
B||-----------1--------|-----------4--------|--------3-----3-----|
G||--------2-----2-----|--------4-----4-----|-----2-----------2--|
D||-----2-----------2--|-----4-----------4--|--0-----------------|
A||--0-----------------|--2-----------------|--------------------|
E||--------------------|--------------------|--------------------|


  E                    Am                  
Prin povestea          verii
--------------------|--------------------||
-----------0--------|-----------1--------||
--------1-----1-----|--------2-----2-----||
-----2-----------2--|-----2-----------2--||
--2-----------------|--0-----------------||
--------------------|--------------------||

Am             B    Dm
Numai urme de paşi
      E        Am
Din povestea verii
Peste suflet îmi laşi
La căderea serii

Numai noapte în noi
Și-n tăcerea goală
Între ziduri de ploi
Când iubirea moare

Bridge:

              C
Cum se poate sfârşi
Într-o singură zi 
        E E7
Atâta viaţă?
F
Cum poţi crede că-i drept
                    E
Tu să pleci eu s-aştept
     E7
Somnul rău?

Pentru care temei
Laşi pe umerii mei
Flori de gheaţă
Cum poţi crede că pot
Da uitării de tot
Glasul tău?
	
	Refren:
	
	Am	
	Fără tine, fără tine
                Dm                 E7
	Noaptea trece cu mult mai greu
	Am
	Fără tine, fără tine
                 Dm            E7
	Tot mai rece-i soarele meu
	Fără tine, fără tine
	Tristă-i vara din amintiri
	Fără tine, fără tine
	Grea-i povara altei iubiri

Bridge.

Refren.

Numai fluturi cu maci
Cad pe tâmpla zării
Când încerci să refaci
Drumul dat uitării

Numai lacrimi şi spini
Strâng lângă fereastră
Desfrunzite grădini
În absenţa noastră

Bridge.