Veta Biriș - Doamne, ocroteste-i pe romani (solo)

E-0-3-1-0-0--------0-1-0---------0-0----------0--
B----------3-3-----------3-1-0-------1-0-1-0-3---
G-----------------------------2------------------
D------------------------------------------------
A------------------------------------------------
E------------------------------------------------

E-0-3-1-0-0--------0-1-0---------0-0--------------
B----------3-3-----------3-1-0-------1-0-1-0-0----
G------------------------------2---------------2--
D-------------------------------------------------
A-------------------------------------------------
E-------------------------------------------------

E------0-0-0---------------
B--1-0---------1-0---------
G-2---2-------2---2-2-0-0--
D--------------------------
A--------------------------
E--------------------------

E--------------3-1-0--0-3-1-0-0-----
B-1-1--1-1--3-3----------------3-3--
G-----------------------------------
D-----------------------------------
A-----------------------------------
E-----------------------------------

E-0-1-0---------
B-------3-1-0---
G------------2--
D---------------
A---------------
E---------------

E-0-0--------------
B----3-0-1-1-0-0---
G---------------2--
D------------------
A------------------
E------------------

E-0-3-1-0-0-----0-1-0--------
B----------3-3-------3-1-0---
G-------------------------2--
D----------------------------
A----------------------------
E----------------------------

E-0-0------------
B----1-0-1-0-0---
G-------------2--
D----------------
A----------------
E----------------
1213a7e02656018f3f15c91e729598cf