Vița de Vie - Alunga Tacerea

Music by Vita De Vie
Album: Egon (2007)  
Song: Alunga Tacerea
Tuning: B-F♯-B-E-G♯-C♯
(original, cantecul a fost compus cu o chitara acordata B-E-A-D-G-B-E)

Intro (Distortie cu Wah)
C♯|------------------------------------|
G♯|------------------------------------|
E |--8888-------------8888-------------|
B |--7777-------------7777-------------|
F♯|--6666-------------6666-------------|
B |-------0-000-0-000------0-0000-000--|

Heavy Intro : Aceeasi chestie, fara wah.

Vers (Clean cu Leslie Speaker)
C♯|---------------------------|
G♯|---------------------------|
E |------7~------10~--8~--7~--|
B |----7-------8------7~--7~--|
F♯|--5-------6--------6~--6~--|
B |---------------------------|

Refren (Distortie)
C♯|------------------------------------------------------|
G♯|------------------------------------------------------|
E |-------------8-88-121212-------------8-8-1212/141414--|
B |--0-00-0--1-1x-xx-x-x-x---0-00-0--1-1x-x-x-x-/x-x-x---|
F♯|--0-00-0--1-16-66-101010--0-00-0--1-16-6-1010/121212--|
B |--0-00-0--1-1-------------0-00-0--1-1-----------------|

Interlude (Distortie cu Wah)
C♯|------------------------------------|
G♯|------------------------------------|
E |--8888-------------8888-------------|
B |--7777-------------7777-------------|
F♯|--6666-------------6666-------------|
B |-------0-000-0-000------0-0000-000--|

Bridge (Distortie)
C♯|--------------------------------------|
G♯|--------------------------------------|
E |--8888-------------8888---------------|
B |--8888-0-0-0-3-33--8888-0-0-0-00-3-3--|
F♯|--6666-0-0-0-3-33--6666-0-0-0-00-3-3--|
B |-------0-0-0-3-33-------0-0-0-00-3-3--|

Ultimul Refren (Distortie)
C♯|--------------------------------------------------------------|
G♯|--------------------------------------------------------------|
E |-------------8-88-121212-------------8-8877/-88-8-8-8---------|
B |--0-00-0--1-1x-xx-x-x-x---0-00-0--1-1x-xxxx/-77-7-7-7--3~--0--|
F♯|--0-00-0--1-16-66-101010--0-00-0--1-16-6655/-66-6-6-6--1~--0--|
B |--0-00-0--1-1-------------0-00-0--1-1------------------1~--0--|
6Ld5REUUAAAAAA1PBEDya2BDGnf5rYKeKnmYm4Cz
b47185f31841d910bf98a85d12d6c8cc