Vița de Vie - Basul si cu toba mare

Verse:

E|-----12--- Slight bend...bend-ul nu trebuie sa fie foarte intens
B|-----13b
G|--------
D|--------
A|--------
E|--------

Riff-ul de dupa vers:aici X inseamna Pinch Harmonic,suna mai bad-ass

E|--------------------------------------------------------------------
B|--------------------------------------------------------------------
G|-----9-----12-----9-----12-----11v-----9-----11-----12b9-----11x
D|--------------------------------------------------------------------
A|--------------------------------------------------------------------
E|--------------------------------------------------------------------

E|-----------------------------------------------------------------
B|-----------------------------------------------------------------
G|-----------------------------------------------------------------
D|-----2-----8-----7-----2-----4-----5-----2-----8-----7----------
A|-----2-----8-----7-----2-----4-----5-----2-----8-----7----------
E|-----0-----6-----5-----0-----2-----3-----0-----6-----5----------

BASUL SI CU TOBA MARE!!!
(x)Aici: Armonice naturale,tre sa faceti strumming dupa ureche.
E|-----------
B|-----------
G|-----------
D|-----5x----
A|-----5x----
E|-----3x----