Vița de Vie - Fetish

Dist.
e|--------------------------------------------------------------------------------------
B|--------------------------------------------------------------------------------------
G|--9-------6----9-------6------------6-----------6-------------------------------------
D|--9-----4-6----9-----4-6----6-7-0-4-6---6-7-0-4-6-------------------------------------
A|--7---0-4-4----7---0-4-4----6-7-0-4-4---6-7-0-4-4-------------------------------------
D|--7---0-4-4----7---0-4-4----6-7-0-4-4---6-7-0-4-4-------------------------------------
 
Clean
e|--------------------------------------------------------------------------------------
B|--------------------------------------------------------------------------------------
G|--------------------------------------------------------------------------------------
D|--6-6-6-7-7-7-7-7--12-12-11--14-14-14-14-14--------6-6-6-7-7-7-7-7--12-12-11-7-7-7-7-7
A|--0-0-0-4-4-4-4-4--9--9--9---12-12-12-12-12--------0-0-0-4-4-4-4-4--9--9--9--5-5-5-5-5
D|--0-0-0-4-4-4-4-4--9--9--9---12-12-12-12-12--------0-0-0-4-4-4-4-4--9--9--9--0-0-0-0-0
 
Bridge 
Guitar 1 Dist.
e|--------------------------------------------------------------------------------------
B|--------------------------------------------------------------------------------------
G|--------------------------------------------------------------------------------------
D|---0-0-0-4-4-4-4-4-9-9-9-12-12-12-12-12-----0-0-0-4-4-4-4-4-9-9-9-0-0-0-0-0-----------
A|---0-0-0-4-4-4-4-4-9-9-9-12-12-12-12-12-----0-0-0-4-4-4-4-4-9-9-9-0-0-0-0-0-----------
D|---0-0-0-4-4-4-4-4-9-9-9-12-12-12-12-12-----0-0-0-4-4-4-4-4-9-9-9-0-0-0-0-0-----------

Guitar 2 Dist. 
e|--------------------------------------------------------------------------------------
B|----------9-9-10-10-10-7-7-7-----------------------9-9-10-10-10-7-7-7-----------------
G|---7-7-7---------------------7-7-7-7-7-----7-7-7---------------------9-9-9-9-9--------
D|----------6-6-7--7--7--4-4-4-----------------------6-6-7--7--7--4-4-4-----------------
A|---5-5-5---------------------5-5-5-5-5------5-5-5---------------------7-7-7-7-7-------
D|--------------------------------------------------------------------------------------