Vița de Vie - Luna si noi (intro)

  • Contribuție:  ule
  • Ultima actualizare: 10.05.2020
x8
e|--------------|--------------|--------------|--------------|
B|--------------|--------------|--------------|--------------|
G|--------4-----|--------4-----|--------4-----|--------4-----|
D|-----2-----2--|-----2-----2--|-----2-----2--|-----2-----2--|
A|--4-----------|--0-----------|--------------|--0-----------|
E|--------------|--------------|--2-----------|--------------|

e|--------------|--------------|--------------|--------------|
B|--------------|--------------|--------------|--------------|
G|--------4-----|--------4-----|-----4-----4--|-----4-----4--|
D|-----2-----2--|-----2-----2--|--------------|--------------|
A|--4-----------|--0-----------|--------------|--0-----2-----|
E|--------------|--------------|--2-----4-----|--------------|

dupa care urmeaza ceva de genul

e|--------------|--------------|--------------|--------------|
B|--------------|--------------|--------------|--------------|
G|--11-11-11-11-|--x--x--8--8--|--9-----9-----|--6--6-----4--|
D|--9--9--9--9--|--x--x--6--6--|--7-----7-----|--4--4-----2--|
A|--9--9--9--9--|--x--x--6--6--|--7-----7-----|--4--4-----2--|
E|--------------|--------------|--------------|--------------|
			       de aici intra bassul ala fain 
e|--------------|--------------|--------------|--------------|
B|--------------|--------------|--------------|--------------|
G|--8--8--8--8--|--x--x--9--9--|--6-----------|--------------|
D|--6--6--6--6--|--x--x--7--7--|--4-----------|--------------|
A|--6--6--6--6--|--x--x--7--7--|--4-----------|--------------|
E|--------------|--------------|--------------|--------------|
6f28ccea1e3f0aebae123ce230fea9d8
6Ld5REUUAAAAAA1PBEDya2BDGnf5rYKeKnmYm4Cz