Vița de Vie - Praf de stele (solo)

  • (2 voturi)
  • Contribuție:  cryxxx
--------------------------------------------------------------------
 --------------------------------------------------------------------
 --------------------------------------------------------------------
 -9--7--5--7-5-------------------------------------------------------
 --------------5-5/7-7-7-7-7-7/5-5-5-5-0-2-2-2-2-2-2-2b2b2-----------
 --------------------------------------------------------------------


 --------------------------------------------------------------------
 --------------------7-----5-5-5-5-5-5-5/7-7-7-7-7-7/10-10-10-10-10-10/12-12--15
 --------7-------------7---7-7-7-7-7-7-7/9-9-9-9-9-9/12-12-12-12-12-12/14--12-14
 ----4-5---5-4---4-5-----5-------------------------------------------
 --7-----------7-----------------------------------------------------
 ------------------------------------------------------------------