Vița de Vie - Propriul Dumnezeu

  • Contribuție:  anonim870
Album: Doi
Transpunere: Alex90s@yahoo.com

*Intro:

e|---------------------------------------------|
B|---------------------------------------------|
G|----1----------------6-----4--------------2--|
D|-------2----------7-----------5--------3-----|
A|---------------7--------------------3--------|
E|-0--------0/5-----------3--------1-----------|


e|---------------------------------------------|
B|------------------------------------------5--|
G|----1----------------6-----4-----------5-----|
D|-------2----------7-----------5-----5--------|
A|---------------7-----------------3-----------|
E|-0--------0/5-----------3--------------------|

*Intra si a doua chitara cu ceva de genul, ascultati melodia ca sa prindeti 
ritmul:
 
e|-------------------9-------------------------------------------------9------------------------|
B|----5----------10-------------------------------------5----------10--------------------13-----|
G|-4-----4--4/9---------9--9/12~~--12--10--10--12/9--4-----4--4/9---------9--9/12~~--12------12-|
D|----------------------------------------------------------------------------------------------|
A|----------------------------------------------------------------------------------------------|
E|----------------------------------------------------------------------------------------------|

*Apoi intra cu distors cam asa (prindeti ritmul ascultand melodia):

e|--------------------------|
B|--------------------------|
G|-9-14-12-10-12-9-14-12-17-|
D|-x-xx-xx-xx-xx-x-xx-xx-xx-|
A|-7-12-10-8--10-7-12-10-15-|
E|--------------------------|

*Strofa: ca si la intro

*Refren: E5, A5, G5, F5, E5, A5, G5, c5



*Solo:prima parte cred e ceva de genul asta, daca aveti distors puteti sa
 bagati armonice) la fel ascultati melodia ca sa va 

dati seama de cate ori trebui sa cantati fiecare acord):

e|-----------------------------|----------------------------|
B|-----------------------------|----------------------------|
G|-----*4----------------------|----------------------------|
D|--2------7--5--2-------------|--3--3-3-3-3-3-3--3/5-5-5-5-|
A|--2------7--5--2--(de-3-ori)-|--3--3-3-3-3-3-3--3/5-5-5-5-|
E|--0------5--3--0-------------|--1--1-1-1-1-1-1--1/3-3-3-3-|

- /=slide