Vița de Vie - Propriul Dumnezeu

    E       Am         F           E
e-----------0-----------1----------0----------|
B-----------1------1----1----------0----------|
G----1------2----2------2----2-----1------1---|
D------2----2--2--------3------3---2----2-----|
A--2--------0-----------3--3-------2--2-------|
E-----------0-----------1----------0----------|


e----------0-----------1-----------0----0-----|
B----------1-----1-----1-----------1---1------|
G----1-----2---2-------2---2-------2-2--------|
D------2---2--2--------3-----3-----2----------|
A--2-------0-----------3--3--------0----------|
E----------0-----------0-----------0----------|
(***TabU se canta si in timpul strofelor dar se poate canta si cu bataie)

Daca ochii mei sunt prea tristi
Te rog sa nu insisti
Nu ma pune sa iti zambesc
N-am sa reusesc
Si n-am sa pot sa fiu altcineva
Doar pentru placerea ta

instrumental:	E Am F E
                ......Am
                E Am F

Daca umbra mea e prea grea
Sa m-ascund de ea
Am sa o prind si am sa o rup
Si am sa o arunc
Departe... care parte voi putea
Si-am sa uit ca a fost a mea


Daca visul meu e prea scurt
Am sa-l fac mai lung 
Am sa trag de el si-am sa-l cresc
Si n-am sa-l mai opresc
Cu lacrimi calde am sa il lipesc
Si-n el am sa traesc

          E      Am                 F         E
     R.Si inca o data sunt propriul meu Dumnezeu
          E       Am            F               Am
       Am viata-n fata si-am sa fac deacuma cum zic eu
       E     Am            F      E
       Nu am lanturi sa ma tina legat
       E      Am      F
       Nu ma leaga nimic

Daca n-ai in cap mai nimic
Degeaba ma complimplic
Daca este insa ceva
Mai bine-ai asculta
Si poate poate poate intr-o zi
La fel ca mine vei simtii


REFREN
+Deaicea am plecat(***la versul asta va descurcati ca nu mai stiu:)

solo(***care din pacate nu am reusit sa-l scot,daca reuseste cineva 
sa-l scoata il rog sa mi-l trimita):(

REFREN  X2