Vița de Vie - Somn usor (feat. Dan Stanescu si Alex Teodorescu)

  • Contribuție:  reetk
  • Ultima actualizare: 21.12.2017
[Intro]

e|-----------------------------------------------------|
B|-----------------------------------------------------|
G|-----------------------------------------------------|
D|-----------------------------------------------------|
A|---5----7-------12--------5----7--------12-----------|
E|---5----7-------10--------5----7--------10-----------|


e|-----------------------------------------------------|
B|-----------------------------------------------------|
G|-----------------------------------------------------|
D|-----------------------------------------------------|
A|---5----7-------12-------------12/14-----------------|
E|---5----7-------10---------10---------12-----10/9--9-|


*********************************
| /  slide up
| p  pull-off
*********************************