Vița de Vie - Sunetul mai tare (bass)

bass
                                            
G||-------|-------|-------|-------|-------|--------------------------|
D||-------|-------|-------|-------|-------|----------------0-3-0---0-|
A||-------|-------|-------|-------|-------|--------------2-------2---|
E||-------|-------|-------|-------|-------|--------------------------|


  
---------------------------|---------------------------|-------|
--2---0-2--------0-3-0---0-|--2---0-2--------0-3-0---0-|-------|
---------------2-------2---|---------------2-------2---|-------|
---------------------------|---------------------------|-------|



---------------------------|---------------------------|
--2---0-2--------0-3-0---0-|--2---0-2--------0-3-0---0-|
---------------2-------2---|---------------2-------2---|
---------------------------|---------------------------|


  
---------------------------|---------------------------|
--2---0-2--------0-3-0---0-|--2---0-2--------0-3-0---0-|
---------------2-------2---|---------------2-------2---|
---------------------------|---------------------------|



---------------------------|---------------------------|
--2---0-2--------0-3-0---0-|--2---0-2--------0-3-0---0-|
---------------2-------2---|---------------2-------2---|
---------------------------|---------------------------|


 
---------------------------|---------------------------|
--2---0-2--------0-3-0---0-|--2---0-2--------0-3-0---0-|
---------------2-------2---|---------------2-------2---|
---------------------------|---------------------------|
               
---------------------------|---------------------------|-------------------|
--2---0-2--------0-3-0---0-|--2---0-2--------0-3-0---0-|-------------------|
---------------2-------2---|---------------2-------2---|-------------------|
---------------------------|---------------------------|--0----------------|

             
-------------------|-------------------|-------------------|
-------------------|-------------------|-------------------|
-------------------|--0----------------|--3----------------|
--3----------------|-------------------|-------------------|



------------------------|----------------------------|------------------------|
------------------------|----------------------------|------------------------|
--1-------0-------------|--1-------0-----------------|--1-------0-------------|
------3------0---3---0--|------3------0--12~--12S----|------3------0---3---0--|


    
-------------------------|------------------------|----------------------------|
------------------0---2--|------------------------|----------------------------|
--3--3--3--3--2----------|--1-------0-------------|--1-------0-----------------|
-------------------------|------3------0---3---0--|------3------0--12~--12S----|


        
------------------------|-------------------------|-----|
------------------------|------------------0---2--|-----|
--1-------0-------------|--3--3--3--3--2----------|-----|
------3------0---3---0--|-------------------------|-----|


  
--9-----7-----5----------------|---------------------------|
----9S----7S----5S-------------|--2---0-2--------0-3-0---0-|
-------------------------------|---------------2-------2---|
--------------------0--0--0--0-|---------------------------|



---------------------------|---------------------------|
--2---0-2--------0-3-0---0-|--2---0-2--------0-3-0---0-|
---------------2-------2---|---------------2-------2---|
---------------------------|---------------------------|


---------------------------|---------------------------|
--2---0-2--------0-3-0---0-|--2---0-2--------0-3-0---0-|
---------------2-------2---|---------------2-------2---|
---------------------------|---------------------------|


   
---------------------------|---------------------------|
--2---0-2--------0-3-0---0-|--2---0-2--------0-3-0---0-|
---------------2-------2---|---------------2-------2---|
---------------------------|---------------------------|


  
---------------------------|---------------------------|
--2---0-2--------0-3-0---0-|--2---0-2--------0-3-0---0-|
---------------2-------2---|---------------2-------2---|
---------------------------|---------------------------|



---------------------------|---------------------------|
--2---0-2--------0-3-0---0-|--2---0-2--------0-3-0---0-|
---------------2-------2---|---------------2-------2---|
---------------------------|---------------------------|


            
---------------------------|-------------------|-------------------|
--2---0-2--------0-3-0---0-|-------------------|-------------------|
---------------2-------2---|-------------------|-------------------|
---------------------------|--0----------------|--3----------------|


 
-------------------|-------------------|------------------------|
-------------------|-------------------|------------------------|
--0----------------|--3----------------|--1-------0-------------|
-------------------|-------------------|------3------0---3---0--|


    
----------------------------|------------------------|-------------------------|
----------------------------|------------------------|------------------0---2--|
--1-------0-----------------|--1-------0-------------|--3--3--3--3--2----------|
------3------0--12~--12S----|------3------0---3---0--|-------------------------|


  
------------------------|----------------------------|------------------------|
------------------------|----------------------------|------------------------|
--1-------0-------------|--1-------0-----------------|--1-------0-------------|
------3------0---3---0--|------3------0--12~--12S----|------3------0---3---0--|


         
-------------------------|-------------------|-------------------|
-------------------------|-------------------|-------------------|
--3--3--3--3--2---2---2--|-------------------|-------------------|
-------------------------|--0----------------|-------------------|


    
-------------------|-------------------|----------------------|
-------------------|-------------------|----------------------|
-------------------|-------------------|----------------------|
-------------------|-------------------|--0----0----0----0----|

   
----------------------|----------------------|----------------------|
----------------------|----------------------|----------------------|
----------------------|----------------------|----------------------|
--0----0----0----0----|--0----0----0----0----|--0----0----0----0----|


  
--------------------------|--------------------------|
--------------------------|--------------------------|
--------------------------|--------------------------|
--0--0--0--0--0--0--0--0--|--0--0--0--0--0--0--0--0--|


 
--------------------------|--------------------------|
--------------------------|--------------------------|
--------------------------|--------------------------|
--0--0--0--0--0--0--0--0--|--0--0--0--0--0--0--0--0--|


   
--------------------------|--------------------------|
--------------------------|--------------------------|
--------------------------|--------------------------|
--0--0--0--0--0--0--0--0--|--0--0--0--0--0--0--0--0--|



--------------------------|--------------------------|------------------------|
--------------------------|--------------------------|------------------------|
--------------------------|--------------------------|--1-------0-------------|
--0--0--0--0--0--0--0--0--|--0--0--0--0--0--0--0--0--|------3------0---3---0--|


   
----------------------------|------------------------|-------------------------|
----------------------------|------------------------|------------------0---2--|
--1-------0-----------------|--1-------0-------------|--3--3--3--3--2----------|
------3------0--12~--12S----|------3------0---3---0--|-------------------------|



------------------------|----------------------------|------------------------|
------------------------|----------------------------|------------------------|
--1-------0-------------|--1-------0-----------------|--1-------0-------------|
------3------0---3---0--|------3------0--12~--12S----|------3------0---3---0--|


 
-------------------------|------------------------|----------------------------|
------------------0---2--|------------------------|----------------------------|
--3--3--3--3--2----------|--1-------0-------------|--1-------0-----------------|
-------------------------|------3------0---3---0--|------3------0--12~--12S----|

------------------------|-------------------------|------------------------|
------------------------|------------------0---2--|------------------------|
--1-------0-------------|--3--3--3--3--2----------|--1-------0-------------|
------3------0---3---0--|-------------------------|------3------0---3---0--|


  
----------------------------|------------------------|
----------------------------|------------------------|
--1-------0-----------------|--1-------0-------------|
------3------0--12~--12S----|------3------0---3---0--|


         
--------------------------|-----||
--------------------------|-----||
--3--3--3--3--2--2--2--2--|-----||
--------------------------|-----||