Zdob și Zdub - Tigan si OZN

  • (9 voturi)
  • Contribuție:  rasgeado
  • Ultima actualizare: 16.04.2008
ritm de polka, 2/4

Intro I (trompeta, dosarele X):

E||-------7----5----7----|--10----7-------------|-------7----5----7----|
B||--5-------------------|----------------------|--5-------------------|
G||----------------------|----------------------|----------------------|
D||----------------------|----------------------|----------------------|
A||----------------------|----------------------|----------------------|
E||----------------------|----------------------|----------------------|


--10----7-------------|--15----14----12----10----|--12----7-------------|
----------------------|--------------------------|----------------------|
----------------------|--------------------------|----------------------|
----------------------|--------------------------|----------------------|
----------------------|--------------------------|----------------------|
----------------------|--------------------------|----------------------|


--10--8--7-----------------||
------------10--8-----7----||
---------------------------||
---------------------------||
---------------------------||
---------------------------||


Intro II:

E||-----------------------------|----------------------------|
B||-----------------------------|----------------------------|
G||--4--5-4--2-0----4--5-4--2-0-|--L------------4--5-4--2-0--|
D||-----------------------------|----------------------------|
A||-----------------------------|------2--3------------------|
E||-----------------------------|----------------------------|


  S E  S E  S E  S E  E  E    
----------------------------||
----------------------------||
----4--5-4--2-0-------------||
----------------------------||
-------------------5--7-----||
----------------------------||

Em                           Am
Eu în şatră m-am născut la margina poianii
C                      B7          Em
Vagabond eram de mic ca şi toţi ţiganii
Dar să vezi că într-o zi de la fusta mamii
M-au furat extratereştrii, inaplaneteanii

Refren:

Riff A:
E||---------------------------||
B||---------------------------||
G||--0---0--0--0--------------||
D||--0s--2--2--0--2--2--0--2--||
A||--0s--2--2--0--2--2--0--2--||
E||--0------0-----0--0-----0--||


RiffA
Þiganii!

RiffA
Þiganii!

RiffA
Þiganii!

RiffA  n.c.
     şi inoplaneteanii


Echipajul marţian m-a crescut cum a putut
şi cu ei prin univers multe drumuri am bătut
Dar nu pot uita poiana din pădurea deasă
şi acum mă-ntorc la oameni, mă întorc acasă

	Refren.

Riff B

E||-----------------||
B||-----------------||
G||-----------------||
D||-----------------||
A||------------6----||
E||--7----9---------||

Poate chipul meu de om s-a schimbat cu anii
Dar în suflet am rămas ca şi toţi ţiganii
Vino-ncoace să-ţi arăt măi cărţile pe faţă
Multă dragoste şi bani te aşteaptă-n viaţă

	Refren.

Hai uăi Valerică uăi!

Bridge:

Em D Am
Em C D
6Ld5REUUAAAAAA1PBEDya2BDGnf5rYKeKnmYm4Cz
70ead0d381ee5115c27b3a0d7a6a6577